About A Girl | Nirvana | UkeGeek's Scriptasaurus

About A Girl

Nirvana

{Title:About A Girl}
{subtitle:Nirvana}

[Em]    [G]
[Em]    [G] 
[Em]    [G]  
[Em]    [G]   
[Em]    [G]  
[Em]    [G]  
[Em]I   n[G]eed an [Em]easy f[G]riend
[Em]I do [G]with a [Em]ear to l[G]end
[Em]I do [G]think you [Em]fit this [G]shoe
[Em]I do [G]what you [Em]have a [G]clue


{sot}
e|--4--4--11--9-9--9--9-9---|
B|--4--4--11--9-9--9--9-9---|
G|--1--1---8--6-6--6--6-6---|
D|--1--1---8--6-6--6--6-6---|
{eot}
I'll take advantage while


{sot}
e|--4--4--11--9-9--9--9-9---|
B|--4--4--11--9-9--9--9-9---|
G|--1--1---8--6-6--6--6-6---|
D|--1--1---8--6-6--6--6-6---|
{eot}
You hang me out to dry


But I[Em] can't[A] see y[C]ou every nigh[Em]t fr[G]ee[Em][G]
[Em]I do[G][Em][G][Em][G]
 (play same as last verse)
I'm standing in your light
I do hope you have the time
I do pick up number two
I do keep a date with you
{sot}
e|--4--4--11--9-9--9--9-9---|
B|--4--4--11--9-9--9--9-9---|
G|--1--1---8--6-6--6--6-6---|
D|--1--1---8--6-6--6--6-6---|
{eot}
I'll take advantage while


{sot}
e|--4--4--11--9-9--9--9-9---|
B|--4--4--11--9-9--9--9-9---|
G|--1--1---8--6-6--6--6-6---|
D|--1--1---8--6-6--6--6-6---|
{eot}
You hang me out to dry
But I [Em]can't [A]see you[C] every nigh[Em]t fr[G]ee[Em][G]
[Em]    [G]   [Em]    [G]  [Em]   [G]  (SOLO)
                                                                                      
{sot}
e|------------------------------------|
{eot}
                                                                                      
{sot}
B|------------------------------------|
{eot}
                                                                                      
{sot}
G|---------5-7/-----9-9-9-9/--12-12-12|X4
{eot}
                                                                                      
{sot}
D|-2-/-5-7-----------------/--12-12-12|
{eot}
                                                                                      
{sot}
A|-2----------------------------------|
{eot}
                                                                                      
{sot}
E|-0----------------------------------|
{eot}
(Straight after solo)
                                                                                      
{sot}
e|--4--4--11--9-9--9--9-9---||--4--4--11--9-9--9--9-9---|
B|--4--4--11--9-9--9--9-9---||--4--4--11--9-9--9--9-9---|
G|--1--1---8--6-6--6--6-6---||--1--1---8--6-6--6--6-6---|
D|--1--1---8--6-6--6--6-6---||--1--1---8--6-6--6--6-6---|
{eot}
[Em]   [A]  [C]  [Em]    [G]   [Em]    [G]  [Em]   [G]  [Em]    [G]   [Em]    [G]  [Em]   [G]  [Em][G][Em][G][Em][G][Em]I n[G]eed an [Em]easy f[G]riend
[Em]I do [G]with a [Em]ear to l[G]end
[Em]I do [G]think you [Em]fit this [G]shoe
[Em]I do [G]what you [Em]have a [G]clue
{sot}
e|--4--4--11--9-9--9--9-9---|
B|--4--4--11--9-9--9--9-9---|
G|--1--1---8--6-6--6--6-6---|
D|--1--1---8--6-6--6--6-6---|
{eot}
I'll take advantage while


{sot}
e|--4--4--11--9-9--9--9-9---|
B|--4--4--11--9-9--9--9-9---|
G|--1--1---8--6-6--6--6-6---|
D|--1--1---8--6-6--6--6-6---|
{eot}
You hang me out to dry

But I[Em] can't[A] see you [C]every night 
But [Em]I can't see[A] you every[C] night...
f[Em]ree[G][Em][G][Em][G]
[Em]I do[G]...[Em]... 
[G]I [Em]do.[G]..[Em]....
[G]. I[Em] do.[G]..
[Em]...[G].. I do

Note: Standard GCEA Soprano Ukulele Tuning. Powered by UkeGeeks' Scriptasaurus • ukegeeks.com

Top 50 Ukulele Sites Top Ukulele Sites