In a gadda da vida | Iron Butterfly | UkeGeek's Scriptasaurus

In a gadda da vida

Iron Butterfly

{t:In a gadda da vida}
{st:Iron Butterfly}

[Gm]

{sot}
A|---------------------------------------|
E|---------------------------------------|
C|-----------------------2--1--0---------|
g|--0---0---3p2------0------------3------|
{eot}  


In-A-Gadda-Da-Vida, honey, 
Don't you know that I love you? 
In-A-Gadda-Da-Vida, baby, 
Don't you know that I'll always be true? 

In-A-Gadda-Da-Vida, honey, 
Don't you know that I love you? 
In-A-Gadda-Da-Vida, baby, 
Don't you know that I'll always be true?

{soc}
[C]                  [A]
Oh, won't you come with me
[C]                     [A] 
And take my hand? 
[D]                     [B]
Oh, won't you come with me
[D]                     [B] 
We'll walk this land 
[B]   
Please take my h-a--nd! {eoc}


[Gm]

{sot}
A|---------------------------------------|
E|---------------------------------------|
C|-----------------------2--1--0---------|
g|--0---0---3p2------0------------3------|
{eot}  

In-A-Gadda-Da-Vida, baby, 
Don't you know that I love you? 
In-A-Gadda-Da-Vida, honey, 
Don't you know that I'll always be true? 

{soc}
[C]                  [A]
Oh, won't you come with me
[C]                     [A] 
And take my hand? 
[D]                     [B]
Oh, won't you come with me
[D]                     [B] 
We'll walk this land 
[B]   
Please take my h-a--nd! {eoc}
{eot}


                                                                               
The little ascending part:
{sot}
A|-------------------------------------------------------|
E|-------------------------------------------------------|
C|-----------------1--2--1--2--3--2--1--2--1h2p1---------|
g|--0--2--3--2--3--------------------------------3--2----|
{eot}

{sot}                                                                               
A|----------------------------------------------------|
E|----------------------------------------------------|
C|----------------------------------------------------|
g|--5--5--5-4-3-2--2--2-3-4-5--5--5-4-3-2--2-3-4-5----|
{eot}

{sot}                                                                               
A|-------------------------------------------|
E|-------------------------------------------|
C|--6--6--6-5-4-3--3-3-4-5-6--6--6-5-4-3-----|
g|-------------------------------------------|
{eot}

{sot}                                                                               
A|---------7--6h7p6---------------------|
E|--7vvv-------------9--7---------------|
C|--8vvv-------------------9b11vvvrb9---|
g|--9vvv--------------------------------|
{eot}

Note: Standard GCEA Soprano Ukulele Tuning. Powered by UkeGeeks' Scriptasaurus • ukegeeks.com

Top 50 Ukulele Sites Top Ukulele Sites