Purple Haze | Jimi Hendrix | UkeGeek's Scriptasaurus

Purple Haze

Jimi Hendrix

{title:Purple Haze}
{Subtitle:Jimi Hendrix}
{define: E7 frets 4 4 4 5 fingers 1 1 1 2}
{define: A frets 0 4 5 4 fingers 0 1 3 2}


{sot}
A|----0----6----0----6-------0----6----0----6-----|
E|------------------------------------------------|
C|------------------------------------------------|
g|------------------------------------------------|
{eot}

{sot}
A|--------5--10b-----------------------------------------------|
E|---5/7----------5~-------------2/3---------------------------|
C|------------------------------------2--4--2/4~---------------|
g|-------------------------------------------------------------|
{eot}

{sot}
A|--------5--10b-----------------------------------------------|
E|---5/7----------5~-------------2/3---------------------------|
C|------------------------------------2--4--2/4~-------2/4-----|
g|-------------------------------------------------------------|
{eot}

{sot}
A|-------------------------------------------------------------|
E|---3--5--5b--3~-------------3--------------------------------|
C|-------------------------------2--4--4~----------------------|
g|-------------------------------------------------------------|
{eot}

{sot}
A|---------------------------------0/2--5--5--7~------7/0------|
E|--------3--5b--3/5~-----3------------------------------------|
C|---2/4---------------------4---------------------------------|
g|-------------------------------------------------------------|
{eot}


[E7]purple haze all [G]in my [A]brain
[E7]lately things just don't [G]seem the [A]same
[E7]actin' funny but I [G]don't know [A]why
[E7]s'cuse me while I kiss the sky


{comment: fill}
{sot}
A|----7/9--7--5~------------5--10b---------5--10~--------------|
E|---------------------5/7------------5/7----------------------|
C|-------------------------------------------------------------|
g|-------------------------------------------------------------|
{eot}


[E7]purple haze [G]all ar[A]ound
[E7]don't know if i'm [G]comin' up or [A]down
[E7]am i happy [G]or in [A]misery
[E7]whatever it is that girl put a spell on me

{comment: fill}
{sot}
A|----7/9--7--5~------------5--10b---------5--10~--------------|
E|---------------------5/7------------5/7----------------------|
C|-------------------------------------------------------------|
g|-------------------------------------------------------------|
{eot}


{comment:bridge}
[A]help me [B]help me [D]oh no no
[A]oo ah [B]oo ah [D]oo ah oo ah

{comment: fill}
{sot}
A|----7/9--7--5~------------5--10b---------5--10~--------------|
E|---------------------5/7------------5/7----------------------|
C|-------------------------------------------------------------|
g|-------------------------------------------------------------|
{eot}

yeah purple haze all in my eyes
don't know if it's day or night
you got me blowin' blowin' my mind
is it tomorrow or just the end of time

{comment: fill}
{sot}
A|----7/9--7--5~------------5--10b---------5--10~--------------|
E|---------------------5/7------------5/7----------------------|
C|-------------------------------------------------------------|
g|-------------------------------------------------------------|
{eot}


ooh help me ahh yeah
purple haze yeah oh no no oh help me 
tell me baby tell me i cant' go on loke this
your're makin' me blow my mind mama oh no
purple haze no no it's painful baby





Note: Standard GCEA Soprano Ukulele Tuning. Powered by UkeGeeks' Scriptasaurus • ukegeeks.com

Top 50 Ukulele Sites Top Ukulele Sites